ISO-10303-21;
HEADER;
FILE_DESCRIPTION (( 'STEP AP214' ),
    '1' );
FILE_NAME ('BS1ISOK250267 FULLVAC.STEP',
    '2024-05-22T13:47:54',
    ( '' ),
    ( '' ),
    'SwSTEP 2.0',
    'SolidWorks 2017',
    '' );
FILE_SCHEMA (( 'AUTOMOTIVE_DESIGN' ));
ENDSEC;

DATA;
#1 = AXIS2_PLACEMENT_3D ( 'NONE', #262, #14, #41 ) ;
#2 = EDGE_LOOP ( 'NONE', ( #261 ) ) ;
#3 = APPLICATION_CONTEXT ( 'automotive_design' ) ;
#4 = EDGE_LOOP ( 'NONE', ( #350 ) ) ;
#5 =( NAMED_UNIT ( * ) SI_UNIT ( $, .STERADIAN. ) SOLID_ANGLE_UNIT ( ) );
#6 = APPLICATION_PROTOCOL_DEFINITION ( 'draft international standard', 'automotive_design', 1998, #273 ) ;
#7 = CONICAL_SURFACE ( 'NONE', #211, 144.9999999999999700, 0.7853981633974482800 ) ;
#8 = AXIS2_PLACEMENT_3D ( 'NONE', #368, #113, #186 ) ;
#9 = ORIENTED_EDGE ( 'NONE', *, *, #298, .T. ) ;
#10 = PRODUCT_DEFINITION_CONTEXT ( 'detailed design', #273, 'design' ) ;
#11 = ADVANCED_FACE ( 'NONE', ( #304, #132 ), #339, .T. ) ;
#12 = DIRECTION ( 'NONE',  ( 0.0000000000000000000, 1.000000000000000000, 0.0000000000000000000 ) ) ;
#13 = CIRCLE ( 'NONE', #279, 132.0000000000000300 ) ;
#14 = DIRECTION ( 'NONE',  ( 0.0000000000000000000, -1.000000000000000000, 0.0000000000000000000 ) ) ;
#15 = PRODUCT_DEFINITION_FORMATION_WITH_SPECIFIED_SOURCE ( 'ANY', '', #72, .NOT_KNOWN. ) ;
#16 = PLANE ( 'NONE',  #63 ) ;
#17 = FACE_OUTER_BOUND ( 'NONE', #198, .T. ) ;
#18 = DIRECTION ( 'NONE',  ( 0.0000000000000000000, -0.0000000000000000000, 1.000000000000000000 ) ) ;
#19 = MECHANICAL_DESIGN_GEOMETRIC_PRESENTATION_REPRESENTATION (  '', ( #291 ), #36 ) ;
#20 = CARTESIAN_POINT ( 'NONE',  ( 0.0000000000000000000, -10.00000000000000200, 0.0000000000000000000 ) ) ;
#21 = VERTEX_POINT ( 'NONE', #140 ) ;
#22 = CARTESIAN_POINT ( 'NONE',  ( 0.0000000000000000000, -4.500000000000000900, 0.0000000000000000000 ) ) ;
#23 = FACE_OUTER_BOUND ( 'NONE', #117, .T. ) ;
#24 = DIRECTION ( 'NONE',  ( 0.0000000000000000000, 0.0000000000000000000, 1.000000000000000000 ) ) ;
#25 = EDGE_CURVE ( 'NONE', #357, #357, #311, .T. ) ;
#26 = CIRCLE ( 'NONE', #1, 133.7499999999999700 ) ;
#27 = CARTESIAN_POINT ( 'NONE',  ( 0.0000000000000000000, 0.0000000000000000000, 130.5999999999999900 ) ) ;
#28 = CARTESIAN_POINT ( 'NONE',  ( 0.0000000000000000000, -2.514390909450882700, 144.7321428571428600 ) ) ;
#29 = AXIS2_PLACEMENT_3D ( 'NONE', #85, #156, #271 ) ;
#30 = EDGE_LOOP ( 'NONE', ( #86 ) ) ;
#31 = CARTESIAN_POINT ( 'NONE',  ( 0.0000000000000000000, -1.734723475976807100E-015, 0.0000000000000000000 ) ) ;
#32 = PRODUCT_RELATED_PRODUCT_CATEGORY ( 'part', '', ( #72 ) ) ;
#33 = FACE_OUTER_BOUND ( 'NONE', #92, .T. ) ;
#34 = EDGE_LOOP ( 'NONE', ( #209 ) ) ;
#35 = ADVANCED_FACE ( 'NONE', ( #60, #245 ), #7, .T. ) ;
#36 =( GEOMETRIC_REPRESENTATION_CONTEXT ( 3 ) GLOBAL_UNCERTAINTY_ASSIGNED_CONTEXT ( ( #324 ) ) GLOBAL_UNIT_ASSIGNED_CONTEXT ( ( #347, #226, #5 ) ) REPRESENTATION_CONTEXT ( 'NONE', 'WORKASPACE' ) );
#37 = DIRECTION ( 'NONE',  ( 0.0000000000000000000, 0.0000000000000000000, 1.000000000000000000 ) ) ;
#38 = VERTEX_POINT ( 'NONE', #248 ) ;
#39 = EDGE_LOOP ( 'NONE', ( #221 ) ) ;
#40 = ADVANCED_FACE ( 'NONE', ( #231, #174 ), #91, .T. ) ;
#41 = DIRECTION ( 'NONE',  ( 0.0000000000000000000, 0.0000000000000000000, -1.000000000000000000 ) ) ;
#42 = ORIENTED_EDGE ( 'NONE', *, *, #284, .F. ) ;
#43 = FILL_AREA_STYLE ('',( #126 ) ) ;
#44 = EDGE_CURVE ( 'NONE', #38, #38, #242, .T. ) ;
#45 = ORIENTED_EDGE ( 'NONE', *, *, #25, .T. ) ;
#46 = ORIENTED_EDGE ( 'NONE', *, *, #356, .T. ) ;
#47 = AXIS2_PLACEMENT_3D ( 'NONE', #362, #235, #238 ) ;
#48 = PLANE ( 'NONE',  #97 ) ;
#49 = DIRECTION ( 'NONE',  ( 0.0000000000000000000, 1.000000000000000000, 0.0000000000000000000 ) ) ;
#50 = PRODUCT_DEFINITION ( 'UNKNOWN', '', #15, #10 ) ;
#51 = DIRECTION ( 'NONE',  ( 0.0000000000000000000, 0.0000000000000000000, 1.000000000000000000 ) ) ;
#52 = DIRECTION ( 'NONE',  ( 0.0000000000000000000, 0.0000000000000000000, -1.000000000000000000 ) ) ;
#53 = DIRECTION ( 'NONE',  ( 0.0000000000000000000, 1.000000000000000000, 0.0000000000000000000 ) ) ;
#54 = EDGE_LOOP ( 'NONE', ( #45 ) ) ;
#55 = AXIS2_PLACEMENT_3D ( 'NONE', #160, #187, #191 ) ;
#56 = DIRECTION ( 'NONE',  ( 0.0000000000000000000, 0.0000000000000000000, 1.000000000000000000 ) ) ;
#57 =( NAMED_UNIT ( * ) PLANE_ANGLE_UNIT ( ) SI_UNIT ( $, .RADIAN. ) );
#58 = VERTEX_POINT ( 'NONE', #285 ) ;
#59 = FACE_BOUND ( 'NONE', #66, .T. ) ;
#60 = FACE_BOUND ( 'NONE', #138, .T. ) ;
#61 = EDGE_LOOP ( 'NONE', ( #150 ) ) ;
#62 = DIRECTION ( 'NONE',  ( 0.0000000000000000000, 1.000000000000000000, 0.0000000000000000000 ) ) ;
#63 = AXIS2_PLACEMENT_3D ( 'NONE', #112, #216, #240 ) ;
#64 = FACE_OUTER_BOUND ( 'NONE', #319, .T. ) ;
#65 = CARTESIAN_POINT ( 'NONE',  ( 0.0000000000000000000, -7.485609090549117700, 144.7321428571428600 ) ) ;
#66 = EDGE_LOOP ( 'NONE', ( #328 ) ) ;
#67 = CARTESIAN_POINT ( 'NONE',  ( 0.0000000000000000000, -1.734723475976807100E-015, 144.2500000000000000 ) ) ;
#68 = FACE_OUTER_BOUND ( 'NONE', #99, .T. ) ;
#69 = ORIENTED_EDGE ( 'NONE', *, *, #213, .T. ) ;
#70 = AXIS2_PLACEMENT_3D ( 'NONE', #154, #114, #239 ) ;
#71 = VERTEX_POINT ( 'NONE', #28 ) ;
#72 = PRODUCT ( 'BS1ISOK250267 FULLVAC', 'BS1ISOK250267 FULLVAC', '', ( #115 ) ) ;
#73 = ADVANCED_FACE ( 'NONE', ( #236, #158 ), #48, .T. ) ;
#74 = DIRECTION ( 'NONE',  ( 0.0000000000000000000, 0.0000000000000000000, 1.000000000000000000 ) ) ;
#75 = DIRECTION ( 'NONE',  ( 0.0000000000000000000, 0.0000000000000000000, -1.000000000000000000 ) ) ;
#76 = CARTESIAN_POINT ( 'NONE',  ( 0.0000000000000000000, -2.216117818584992300, 0.0000000000000000000 ) ) ;
#77 = CIRCLE ( 'NONE', #300, 133.7499999999999700 ) ;
#78 = ORIENTED_EDGE ( 'NONE', *, *, #269, .F. ) ;
#79 = AXIS2_PLACEMENT_3D ( 'NONE', #296, #177, #153 ) ;
#80 = DIRECTION ( 'NONE',  ( 0.0000000000000000000, 0.0000000000000000000, 1.000000000000000000 ) ) ;
#81 = ADVANCED_FACE ( 'NONE', ( #257, #183 ), #184, .T. ) ;
#82 = CLOSED_SHELL ( 'NONE', ( #355, #124, #206, #73, #35, #11, #108, #152, #179, #104, #40, #81, #299, #293, #321, #295 ) ) ;
#83 = CARTESIAN_POINT ( 'NONE',  ( 0.0000000000000000000, -6.800000000000002500, 0.0000000000000000000 ) ) ;
#84 = DIRECTION ( 'NONE',  ( 0.0000000000000000000, 0.0000000000000000000, 1.000000000000000000 ) ) ;
#85 = CARTESIAN_POINT ( 'NONE',  ( 0.0000000000000000000, -4.500000000000000900, 0.0000000000000000000 ) ) ;
#86 = ORIENTED_EDGE ( 'NONE', *, *, #224, .T. ) ;
#87 = CARTESIAN_POINT ( 'NONE',  ( 0.0000000000000000000, 0.0000000000000000000, 0.0000000000000000000 ) ) ;
#88 = CARTESIAN_POINT ( 'NONE',  ( 0.0000000000000000000, -4.500000000000000900, 0.0000000000000000000 ) ) ;
#89 = FILL_AREA_STYLE ('',( #164 ) ) ;
#90 = CYLINDRICAL_SURFACE ( 'NONE', #55, 132.0000000000000300 ) ;
#91 = CONICAL_SURFACE ( 'NONE', #79, 144.2500000000000000, 0.7853981633974482800 ) ;
#92 = EDGE_LOOP ( 'NONE', ( #315 ) ) ;
#93 =( NAMED_UNIT ( * ) SI_UNIT ( $, .STERADIAN. ) SOLID_ANGLE_UNIT ( ) );
#94 = CARTESIAN_POINT ( 'NONE',  ( 0.0000000000000000000, -11.25000000000000200, 144.9999999999999700 ) ) ;
#95 = AXIS2_PLACEMENT_3D ( 'NONE', #274, #62, #247 ) ;
#96 = EDGE_CURVE ( 'NONE', #335, #335, #193, .T. ) ;
#97 = AXIS2_PLACEMENT_3D ( 'NONE', #134, #102, #327 ) ;
#98 = CYLINDRICAL_SURFACE ( 'NONE', #116, 145.0000000000000000 ) ;
#99 = EDGE_LOOP ( 'NONE', ( #78 ) ) ;
#100 = DIRECTION ( 'NONE',  ( 0.0000000000000000000, 1.000000000000000000, 0.0000000000000000000 ) ) ;
#101 = TOROIDAL_SURFACE ( 'NONE', #166, 144.6999999999999900, 0.2999999999999976600 ) ;
#102 = DIRECTION ( 'NONE',  ( 0.0000000000000000000, -1.000000000000000000, -0.0000000000000000000 ) ) ;
#103 = FACE_BOUND ( 'NONE', #287, .T. ) ;
#104 = ADVANCED_FACE ( 'NONE', ( #33, #372 ), #98, .T. ) ;
#105 = DIRECTION ( 'NONE',  ( 0.0000000000000000000, -1.000000000000000000, -0.0000000000000000000 ) ) ;
#106 = ORIENTED_EDGE ( 'NONE', *, *, #200, .T. ) ;
#107 = UNCERTAINTY_MEASURE_WITH_UNIT (LENGTH_MEASURE( 1.000000000000000100E-005 ), #109, 'distance_accuracy_value', 'NONE');
#108 = ADVANCED_FACE ( 'NONE', ( #17, #171 ), #119, .T. ) ;
#109 =( LENGTH_UNIT ( ) NAMED_UNIT ( * ) SI_UNIT ( .MILLI., .METRE. ) );
#110 = VERTEX_POINT ( 'NONE', #313 ) ;
#111 = DIRECTION ( 'NONE',  ( 0.0000000000000000000, 1.000000000000000000, 0.0000000000000000000 ) ) ;
#112 = CARTESIAN_POINT ( 'NONE',  ( 0.0000000000000000000, -6.800000000000002500, 0.0000000000000000000 ) ) ;
#113 = DIRECTION ( 'NONE',  ( 0.0000000000000000000, 1.000000000000000000, 0.0000000000000000000 ) ) ;
#114 = DIRECTION ( 'NONE',  ( 0.0000000000000000000, 1.000000000000000000, 0.0000000000000000000 ) ) ;
#115 = PRODUCT_CONTEXT ( 'NONE', #3, 'mechanical' ) ;
#116 = AXIS2_PLACEMENT_3D ( 'NONE', #196, #364, #161 ) ;
#117 = EDGE_LOOP ( 'NONE', ( #106 ) ) ;
#118 = DIRECTION ( 'NONE',  ( 0.0000000000000000000, 1.000000000000000000, 0.0000000000000000000 ) ) ;
#119 = TOROIDAL_SURFACE ( 'NONE', #352, 144.6999999999999900, 0.2999999999999978800 ) ;
#120 = CARTESIAN_POINT ( 'NONE',  ( 142.5000000000000300, -10.00000000000000200, 0.0000000000000000000 ) ) ;
#121 = SURFACE_STYLE_FILL_AREA ( #89 ) ;
#122 = ORIENTED_EDGE ( 'NONE', *, *, #253, .F. ) ;
#123 = EDGE_LOOP ( 'NONE', ( #318 ) ) ;
#124 = ADVANCED_FACE ( 'NONE', ( #148, #103 ), #225, .T. ) ;
#125 = PRESENTATION_LAYER_ASSIGNMENT (  '', '', ( #180 ) ) ;
#126 = FILL_AREA_STYLE_COLOUR ( '', #228 ) ;
#127 = CIRCLE ( 'NONE', #316, 130.5999999999999900 ) ;
#128 = CARTESIAN_POINT ( 'NONE',  ( 0.0000000000000000000, -2.514390909450882700, 0.0000000000000000000 ) ) ;
#129 = ORIENTED_EDGE ( 'NONE', *, *, #130, .F. ) ;
#130 = EDGE_CURVE ( 'NONE', #317, #317, #297, .T. ) ;
#131 = CARTESIAN_POINT ( 'NONE',  ( 0.0000000000000000000, -11.90000000000000000, 0.0000000000000000000 ) ) ;
#132 = FACE_OUTER_BOUND ( 'NONE', #303, .T. ) ;
#133 = DIRECTION ( 'NONE',  ( 0.0000000000000000000, 0.0000000000000000000, 1.000000000000000000 ) ) ;
#134 = CARTESIAN_POINT ( 'NONE',  ( 144.2499999999999700, -12.00000000000000200, 0.0000000000000000000 ) ) ;
#135 = CARTESIAN_POINT ( 'NONE',  ( 0.0000000000000000000, -7.485609090549117700, 0.0000000000000000000 ) ) ;
#136 = CIRCLE ( 'NONE', #8, 142.5000000000000300 ) ;
#137 = AXIS2_PLACEMENT_3D ( 'NONE', #233, #111, #301 ) ;
#138 = EDGE_LOOP ( 'NONE', ( #222 ) ) ;
#139 = DIRECTION ( 'NONE',  ( 0.0000000000000000000, 1.000000000000000000, 0.0000000000000000000 ) ) ;
#140 = CARTESIAN_POINT ( 'NONE',  ( 0.0000000000000000000, -6.800000000000002500, -133.7499999999999700 ) ) ;
#141 = CYLINDRICAL_SURFACE ( 'NONE', #47, 130.5999999999999900 ) ;
#142 = EDGE_LOOP ( 'NONE', ( #367 ) ) ;
#143 = EDGE_LOOP ( 'NONE', ( #210 ) ) ;
#144 = CARTESIAN_POINT ( 'NONE',  ( 0.0000000000000000000, -5.000000000000001800, 0.0000000000000000000 ) ) ;
#145 = EDGE_LOOP ( 'NONE', ( #129 ) ) ;
#146 = CARTESIAN_POINT ( 'NONE',  ( 0.0000000000000000000, 0.0000000000000000000, 0.0000000000000000000 ) ) ;
#147 = DIRECTION ( 'NONE',  ( 0.0000000000000000000, 1.000000000000000000, 0.0000000000000000000 ) ) ;
#148 = FACE_OUTER_BOUND ( 'NONE', #39, .T. ) ;
#149 = AXIS2_PLACEMENT_3D ( 'NONE', #31, #118, #265 ) ;
#150 = ORIENTED_EDGE ( 'NONE', *, *, #224, .F. ) ;
#151 =( NAMED_UNIT ( * ) PLANE_ANGLE_UNIT ( ) SI_UNIT ( $, .RADIAN. ) );
#152 = ADVANCED_FACE ( 'NONE', ( #358, #349 ), #264, .F. ) ;
#153 = DIRECTION ( 'NONE',  ( 0.0000000000000000000, 0.0000000000000000000, -1.000000000000000000 ) ) ;
#154 = CARTESIAN_POINT ( 'NONE',  ( 0.0000000000000000000, -12.00000000000000200, 0.0000000000000000000 ) ) ;
#155 = AXIS2_PLACEMENT_3D ( 'NONE', #309, #147, #56 ) ;
#156 = DIRECTION ( 'NONE',  ( 0.0000000000000000000, 1.000000000000000000, 0.0000000000000000000 ) ) ;
#157 = EDGE_CURVE ( 'NONE', #21, #21, #26, .T. ) ;
#158 = FACE_OUTER_BOUND ( 'NONE', #360, .T. ) ;
#159 = DIRECTION ( 'NONE',  ( 0.0000000000000000000, 0.0000000000000000000, 1.000000000000000000 ) ) ;
#160 = CARTESIAN_POINT ( 'NONE',  ( 0.0000000000000000000, -14.50000000000000000, 0.0000000000000000000 ) ) ;
#161 = DIRECTION ( 'NONE',  ( 0.0000000000000000000, 0.0000000000000000000, 1.000000000000000000 ) ) ;
#162 = CIRCLE ( 'NONE', #70, 144.2499999999999700 ) ;
#163 = DIRECTION ( 'NONE',  ( 0.0000000000000000000, 0.0000000000000000000, 1.000000000000000000 ) ) ;
#164 = FILL_AREA_STYLE_COLOUR ( '', #310 ) ;
#165 = EDGE_CURVE ( 'NONE', #167, #167, #241, .T. ) ;
#166 = AXIS2_PLACEMENT_3D ( 'NONE', #76, #359, #37 ) ;
#167 = VERTEX_POINT ( 'NONE', #243 ) ;
#168 = AXIS2_PLACEMENT_3D ( 'NONE', #120, #105, #280 ) ;
#169 = SURFACE_STYLE_USAGE ( .BOTH. , #170 ) ;
#170 = SURFACE_SIDE_STYLE ('',( #121 ) ) ;
#171 = FACE_OUTER_BOUND ( 'NONE', #272, .T. ) ;
#172 = ORIENTED_EDGE ( 'NONE', *, *, #276, .F. ) ;
#173 = CARTESIAN_POINT ( 'NONE',  ( 0.0000000000000000000, -4.500000000000000900, 132.0000000000000300 ) ) ;
#174 = FACE_BOUND ( 'NONE', #145, .T. ) ;
#175 = AXIS2_PLACEMENT_3D ( 'NONE', #128, #178, #322 ) ;
#176 = PRESENTATION_STYLE_ASSIGNMENT (( #320 ) ) ;
#177 = DIRECTION ( 'NONE',  ( -0.0000000000000000000, -1.000000000000000000, -0.0000000000000000000 ) ) ;
#178 = DIRECTION ( 'NONE',  ( 0.0000000000000000000, 1.000000000000000000, 0.0000000000000000000 ) ) ;
#179 = ADVANCED_FACE ( 'NONE', ( #23, #277 ), #101, .T. ) ;
#180 = STYLED_ITEM ( 'NONE', ( #176 ), #195 ) ;
#181 = VERTEX_POINT ( 'NONE', #346 ) ;
#182 = CIRCLE ( 'NONE', #344, 144.9999999999999700 ) ;
#183 = FACE_OUTER_BOUND ( 'NONE', #292, .T. ) ;
#184 = PLANE ( 'NONE',  #340 ) ;
#185 = CARTESIAN_POINT ( 'NONE',  ( 130.5000000000000000, -8.224981998165895300E-016, 0.0000000000000000000 ) ) ;
#186 = DIRECTION ( 'NONE',  ( 0.0000000000000000000, 0.0000000000000000000, 1.000000000000000000 ) ) ;
#187 = DIRECTION ( 'NONE',  ( -0.0000000000000000000, 1.000000000000000000, -0.0000000000000000000 ) ) ;
#188 = AXIS2_PLACEMENT_3D ( 'NONE', #306, #266, #220 ) ;
#189 = VERTEX_POINT ( 'NONE', #342 ) ;
#190 = CARTESIAN_POINT ( 'NONE',  ( 0.0000000000000000000, -7.783882181415011200, 0.0000000000000000000 ) ) ;
#191 = DIRECTION ( 'NONE',  ( 0.0000000000000000000, 0.0000000000000000000, 1.000000000000000000 ) ) ;
#192 = CYLINDRICAL_SURFACE ( 'NONE', #232, 133.7499999999999700 ) ;
#193 = CIRCLE ( 'NONE', #268, 130.5999999999999900 ) ;
#194 = DIRECTION ( 'NONE',  ( 0.0000000000000000000, 0.0000000000000000000, 1.000000000000000000 ) ) ;
#195 = MANIFOLD_SOLID_BREP ( 'collerette', #82 ) ;
#196 = CARTESIAN_POINT ( 'NONE',  ( 0.0000000000000000000, -11.90000000000000000, 0.0000000000000000000 ) ) ;
#197 = CYLINDRICAL_SURFACE ( 'NONE', #255, 142.5000000000000300 ) ;
#198 = EDGE_LOOP ( 'NONE', ( #278 ) ) ;
#199 =( GEOMETRIC_REPRESENTATION_CONTEXT ( 3 ) GLOBAL_UNCERTAINTY_ASSIGNED_CONTEXT ( ( #338 ) ) GLOBAL_UNIT_ASSIGNED_CONTEXT ( ( #314, #57, #93 ) ) REPRESENTATION_CONTEXT ( 'NONE', 'WORKASPACE' ) );
#200 = EDGE_CURVE ( 'NONE', #71, #71, #256, .T. ) ;
#201 = DIRECTION ( 'NONE',  ( 1.000000000000000000, 0.0000000000000000000, 0.0000000000000000000 ) ) ;
#202 = APPLICATION_PROTOCOL_DEFINITION ( 'draft international standard', 'automotive_design', 1998, #3 ) ;
#203 = CIRCLE ( 'NONE', #361, 144.7321428571428600 ) ;
#204 =( GEOMETRIC_REPRESENTATION_CONTEXT ( 3 ) GLOBAL_UNCERTAINTY_ASSIGNED_CONTEXT ( ( #107 ) ) GLOBAL_UNIT_ASSIGNED_CONTEXT ( ( #109, #151, #354 ) ) REPRESENTATION_CONTEXT ( 'NONE', 'WORKASPACE' ) );
#205 = CARTESIAN_POINT ( 'NONE',  ( 0.0000000000000000000, -10.00000000000000200, 0.0000000000000000000 ) ) ;
#206 = ADVANCED_FACE ( 'NONE', ( #371, #325 ), #197, .F. ) ;
#207 = VERTEX_POINT ( 'NONE', #250 ) ;
#208 = EDGE_LOOP ( 'NONE', ( #9 ) ) ;
#209 = ORIENTED_EDGE ( 'NONE', *, *, #213, .F. ) ;
#210 = ORIENTED_EDGE ( 'NONE', *, *, #96, .F. ) ;
#211 = AXIS2_PLACEMENT_3D ( 'NONE', #227, #288, #80 ) ;
#212 = CARTESIAN_POINT ( 'NONE',  ( 0.0000000000000000000, -11.25000000000000200, 0.0000000000000000000 ) ) ;
#213 = EDGE_CURVE ( 'NONE', #363, #363, #13, .T. ) ;
#214 = CIRCLE ( 'NONE', #155, 145.0000000000000000 ) ;
#215 = EDGE_LOOP ( 'NONE', ( #223 ) ) ;
#216 = DIRECTION ( 'NONE',  ( 0.0000000000000000000, -1.000000000000000000, 0.0000000000000000000 ) ) ;
#217 = PRODUCT_DEFINITION_SHAPE ( 'NONE', 'NONE',  #50 ) ;
#218 = EDGE_LOOP ( 'NONE', ( #122 ) ) ;
#219 = DIRECTION ( 'NONE',  ( -0.0000000000000000000, -1.000000000000000000, -0.0000000000000000000 ) ) ;
#220 = DIRECTION ( 'NONE',  ( 0.0000000000000000000, 0.0000000000000000000, 1.000000000000000000 ) ) ;
#221 = ORIENTED_EDGE ( 'NONE', *, *, #165, .F. ) ;
#222 = ORIENTED_EDGE ( 'NONE', *, *, #284, .T. ) ;
#223 = ORIENTED_EDGE ( 'NONE', *, *, #44, .F. ) ;
#224 = EDGE_CURVE ( 'NONE', #189, #189, #136, .T. ) ;
#225 = PLANE ( 'NONE',  #168 ) ;
#226 =( NAMED_UNIT ( * ) PLANE_ANGLE_UNIT ( ) SI_UNIT ( $, .RADIAN. ) );
#227 = CARTESIAN_POINT ( 'NONE',  ( 0.0000000000000000000, -11.25000000000000200, 0.0000000000000000000 ) ) ;
#228 = COLOUR_RGB ( '',0.7921568627450980000, 0.8196078431372548800, 0.9333333333333333500 ) ;
#229 = ORIENTED_EDGE ( 'NONE', *, *, #157, .F. ) ;
#230 = PRESENTATION_STYLE_ASSIGNMENT (( #169 ) ) ;
#231 = FACE_OUTER_BOUND ( 'NONE', #251, .T. ) ;
#232 = AXIS2_PLACEMENT_3D ( 'NONE', #302, #332, #52 ) ;
#233 = CARTESIAN_POINT ( 'NONE',  ( 0.0000000000000000000, -2.216117818584991500, 0.0000000000000000000 ) ) ;
#234 = SURFACE_SIDE_STYLE ('',( #348 ) ) ;
#235 = DIRECTION ( 'NONE',  ( -0.0000000000000000000, 1.000000000000000000, -0.0000000000000000000 ) ) ;
#236 = FACE_BOUND ( 'NONE', #30, .T. ) ;
#237 = ORIENTED_EDGE ( 'NONE', *, *, #298, .F. ) ;
#238 = DIRECTION ( 'NONE',  ( 0.0000000000000000000, 0.0000000000000000000, 1.000000000000000000 ) ) ;
#239 = DIRECTION ( 'NONE',  ( 0.0000000000000000000, 0.0000000000000000000, 1.000000000000000000 ) ) ;
#240 = DIRECTION ( 'NONE',  ( 0.0000000000000000000, -0.0000000000000000000, -1.000000000000000000 ) ) ;
#241 = CIRCLE ( 'NONE', #283, 142.5000000000000300 ) ;
#242 = CIRCLE ( 'NONE', #137, 145.0000000000000000 ) ;
#243 = CARTESIAN_POINT ( 'NONE',  ( 0.0000000000000000000, -10.00000000000000200, 142.5000000000000300 ) ) ;
#244 = VERTEX_POINT ( 'NONE', #27 ) ;
#245 = FACE_OUTER_BOUND ( 'NONE', #218, .T. ) ;
#246 = DIRECTION ( 'NONE',  ( 0.0000000000000000000, 1.000000000000000000, 0.0000000000000000000 ) ) ;
#247 = DIRECTION ( 'NONE',  ( 0.0000000000000000000, 0.0000000000000000000, 1.000000000000000000 ) ) ;
#248 = CARTESIAN_POINT ( 'NONE',  ( 0.0000000000000000000, -2.216117818584991500, 145.0000000000000000 ) ) ;
#249 = FACE_OUTER_BOUND ( 'NONE', #282, .T. ) ;
#250 = CARTESIAN_POINT ( 'NONE',  ( 0.0000000000000000000, -12.00000000000000200, 144.2499999999999700 ) ) ;
#251 = EDGE_LOOP ( 'NONE', ( #46 ) ) ;
#252 = DIRECTION ( 'NONE',  ( 0.0000000000000000000, 0.0000000000000000000, 1.000000000000000000 ) ) ;
#253 = EDGE_CURVE ( 'NONE', #353, #353, #182, .T. ) ;
#254 = VERTEX_POINT ( 'NONE', #65 ) ;
#255 = AXIS2_PLACEMENT_3D ( 'NONE', #131, #100, #294 ) ;
#256 = CIRCLE ( 'NONE', #175, 144.7321428571428600 ) ;
#257 = FACE_BOUND ( 'NONE', #326, .T. ) ;
#258 = FACE_OUTER_BOUND ( 'NONE', #54, .T. ) ;
#259 = AXIS2_PLACEMENT_3D ( 'NONE', #83, #329, #75 ) ;
#260 = EDGE_CURVE ( 'NONE', #110, #110, #374, .T. ) ;
#261 = ORIENTED_EDGE ( 'NONE', *, *, #165, .T. ) ;
#262 = CARTESIAN_POINT ( 'NONE',  ( 0.0000000000000000000, -6.800000000000002500, 0.0000000000000000000 ) ) ;
#263 = FACE_OUTER_BOUND ( 'NONE', #142, .T. ) ;
#264 = TOROIDAL_SURFACE ( 'NONE', #333, 145.0000000000000000, 2.499999999999996900 ) ;
#265 = DIRECTION ( 'NONE',  ( 0.0000000000000000000, 0.0000000000000000000, 1.000000000000000000 ) ) ;
#266 = DIRECTION ( 'NONE',  ( 0.0000000000000000000, 1.000000000000000000, 0.0000000000000000000 ) ) ;
#267 = DIRECTION ( 'NONE',  ( 0.0000000000000000000, 0.0000000000000000000, -1.000000000000000000 ) ) ;
#268 = AXIS2_PLACEMENT_3D ( 'NONE', #22, #219, #163 ) ;
#269 = EDGE_CURVE ( 'NONE', #58, #58, #77, .T. ) ;
#270 = DIRECTION ( 'NONE',  ( 0.0000000000000000000, 1.000000000000000000, 0.0000000000000000000 ) ) ;
#271 = DIRECTION ( 'NONE',  ( 0.0000000000000000000, -0.0000000000000000000, 1.000000000000000000 ) ) ;
#272 = EDGE_LOOP ( 'NONE', ( #237 ) ) ;
#273 = APPLICATION_CONTEXT ( 'automotive_design' ) ;
#274 = CARTESIAN_POINT ( 'NONE',  ( 0.0000000000000000000, -11.90000000000000000, 0.0000000000000000000 ) ) ;
#275 = CARTESIAN_POINT ( 'NONE',  ( 0.0000000000000000000, -6.800000000000002500, -132.0000000000000300 ) ) ;
#276 = EDGE_CURVE ( 'NONE', #244, #244, #127, .T. ) ;
#277 = FACE_OUTER_BOUND ( 'NONE', #215, .T. ) ;
#278 = ORIENTED_EDGE ( 'NONE', *, *, #260, .T. ) ;
#279 = AXIS2_PLACEMENT_3D ( 'NONE', #88, #270, #84 ) ;
#280 = DIRECTION ( 'NONE',  ( 0.0000000000000000000, 0.0000000000000000000, -1.000000000000000000 ) ) ;
#281 = FACE_OUTER_BOUND ( 'NONE', #337, .T. ) ;
#282 = EDGE_LOOP ( 'NONE', ( #289 ) ) ;
#283 = AXIS2_PLACEMENT_3D ( 'NONE', #205, #12, #74 ) ;
#284 = EDGE_CURVE ( 'NONE', #207, #207, #162, .T. ) ;
#285 = CARTESIAN_POINT ( 'NONE',  ( 0.0000000000000000000, -10.00000000000000200, -133.7499999999999700 ) ) ;
#286 = FACE_OUTER_BOUND ( 'NONE', #4, .T. ) ;
#287 = EDGE_LOOP ( 'NONE', ( #373 ) ) ;
#288 = DIRECTION ( 'NONE',  ( 0.0000000000000000000, 1.000000000000000000, 0.0000000000000000000 ) ) ;
#289 = ORIENTED_EDGE ( 'NONE', *, *, #276, .T. ) ;
#290 = EDGE_LOOP ( 'NONE', ( #336 ) ) ;
#291 = STYLED_ITEM ( 'NONE', ( #230 ), #330 ) ;
#292 = EDGE_LOOP ( 'NONE', ( #331 ) ) ;
#293 = ADVANCED_FACE ( 'NONE', ( #263, #249 ), #141, .F. ) ;
#294 = DIRECTION ( 'NONE',  ( 0.0000000000000000000, 0.0000000000000000000, 1.000000000000000000 ) ) ;
#295 = ADVANCED_FACE ( 'NONE', ( #258, #281 ), #90, .F. ) ;
#296 = CARTESIAN_POINT ( 'NONE',  ( 0.0000000000000000000, -1.734723475976807100E-015, 0.0000000000000000000 ) ) ;
#297 = CIRCLE ( 'NONE', #149, 144.2500000000000000 ) ;
#298 = EDGE_CURVE ( 'NONE', #254, #254, #203, .T. ) ;
#299 = ADVANCED_FACE ( 'NONE', ( #59, #286 ), #16, .T. ) ;
#300 = AXIS2_PLACEMENT_3D ( 'NONE', #20, #334, #267 ) ;
#301 = DIRECTION ( 'NONE',  ( 0.0000000000000000000, 0.0000000000000000000, 1.000000000000000000 ) ) ;
#302 = CARTESIAN_POINT ( 'NONE',  ( 0.0000000000000000000, -6.800000000000002500, 0.0000000000000000000 ) ) ;
#303 = EDGE_LOOP ( 'NONE', ( #343 ) ) ;
#304 = FACE_OUTER_BOUND ( 'NONE', #345, .T. ) ;
#305 = PLANE ( 'NONE',  #29 ) ;
#306 = CARTESIAN_POINT ( 'NONE',  ( 0.0000000000000000000, -7.783882181415013900, 0.0000000000000000000 ) ) ;
#307 = FACE_BOUND ( 'NONE', #143, .T. ) ;
#308 = ORIENTED_EDGE ( 'NONE', *, *, #253, .T. ) ;
#309 = CARTESIAN_POINT ( 'NONE',  ( 0.0000000000000000000, -0.7500000000000024400, 0.0000000000000000000 ) ) ;
#310 = COLOUR_RGB ( '',0.7921568627450980000, 0.8196078431372548800, 0.9333333333333333500 ) ;
#311 = CIRCLE ( 'NONE', #259, 132.0000000000000300 ) ;
#312 = PRESENTATION_LAYER_ASSIGNMENT (  '', '', ( #291 ) ) ;
#313 = CARTESIAN_POINT ( 'NONE',  ( 0.0000000000000000000, -7.783882181415013900, 145.0000000000000000 ) ) ;
#314 =( LENGTH_UNIT ( ) NAMED_UNIT ( * ) SI_UNIT ( .MILLI., .METRE. ) );
#315 = ORIENTED_EDGE ( 'NONE', *, *, #44, .T. ) ;
#316 = AXIS2_PLACEMENT_3D ( 'NONE', #87, #49, #133 ) ;
#317 = VERTEX_POINT ( 'NONE', #67 ) ;
#318 = ORIENTED_EDGE ( 'NONE', *, *, #200, .F. ) ;
#319 = EDGE_LOOP ( 'NONE', ( #229 ) ) ;
#320 = SURFACE_STYLE_USAGE ( .BOTH. , #234 ) ;
#321 = ADVANCED_FACE ( 'NONE', ( #366, #307 ), #305, .F. ) ;
#322 = DIRECTION ( 'NONE',  ( 0.0000000000000000000, 0.0000000000000000000, 1.000000000000000000 ) ) ;
#323 = MECHANICAL_DESIGN_GEOMETRIC_PRESENTATION_REPRESENTATION (  '', ( #180 ), #204 ) ;
#324 = UNCERTAINTY_MEASURE_WITH_UNIT (LENGTH_MEASURE( 1.000000000000000100E-005 ), #347, 'distance_accuracy_value', 'NONE');
#325 = FACE_OUTER_BOUND ( 'NONE', #61, .T. ) ;
#326 = EDGE_LOOP ( 'NONE', ( #172 ) ) ;
#327 = DIRECTION ( 'NONE',  ( 0.0000000000000000000, 0.0000000000000000000, -1.000000000000000000 ) ) ;
#328 = ORIENTED_EDGE ( 'NONE', *, *, #25, .F. ) ;
#329 = DIRECTION ( 'NONE',  ( 0.0000000000000000000, -1.000000000000000000, 0.0000000000000000000 ) ) ;
#330 = ADVANCED_BREP_SHAPE_REPRESENTATION ( 'BS1ISOK250267 FULLVAC', ( #195, #351 ), #199 ) ;
#331 = ORIENTED_EDGE ( 'NONE', *, *, #130, .T. ) ;
#332 = DIRECTION ( 'NONE',  ( -0.0000000000000000000, -1.000000000000000000, -0.0000000000000000000 ) ) ;
#333 = AXIS2_PLACEMENT_3D ( 'NONE', #144, #246, #51 ) ;
#334 = DIRECTION ( 'NONE',  ( -0.0000000000000000000, 1.000000000000000000, -0.0000000000000000000 ) ) ;
#335 = VERTEX_POINT ( 'NONE', #370 ) ;
#336 = ORIENTED_EDGE ( 'NONE', *, *, #356, .F. ) ;
#337 = EDGE_LOOP ( 'NONE', ( #69 ) ) ;
#338 = UNCERTAINTY_MEASURE_WITH_UNIT (LENGTH_MEASURE( 1.000000000000000100E-005 ), #314, 'distance_accuracy_value', 'NONE');
#339 = CYLINDRICAL_SURFACE ( 'NONE', #95, 144.9999999999999700 ) ;
#340 = AXIS2_PLACEMENT_3D ( 'NONE', #185, #53, #18 ) ;
#341 = SHAPE_DEFINITION_REPRESENTATION ( #217, #330 ) ;
#342 = CARTESIAN_POINT ( 'NONE',  ( 0.0000000000000000000, -12.00000000000000200, 142.5000000000000300 ) ) ;
#343 = ORIENTED_EDGE ( 'NONE', *, *, #260, .F. ) ;
#344 = AXIS2_PLACEMENT_3D ( 'NONE', #212, #139, #194 ) ;
#345 = EDGE_LOOP ( 'NONE', ( #308 ) ) ;
#346 = CARTESIAN_POINT ( 'NONE',  ( 0.0000000000000000000, -0.7500000000000024400, 145.0000000000000000 ) ) ;
#347 =( LENGTH_UNIT ( ) NAMED_UNIT ( * ) SI_UNIT ( .MILLI., .METRE. ) );
#348 = SURFACE_STYLE_FILL_AREA ( #43 ) ;
#349 = FACE_OUTER_BOUND ( 'NONE', #123, .T. ) ;
#350 = ORIENTED_EDGE ( 'NONE', *, *, #157, .T. ) ;
#351 = AXIS2_PLACEMENT_3D ( 'NONE', #146, #252, #201 ) ;
#352 = AXIS2_PLACEMENT_3D ( 'NONE', #190, #369, #24 ) ;
#353 = VERTEX_POINT ( 'NONE', #94 ) ;
#354 =( NAMED_UNIT ( * ) SI_UNIT ( $, .STERADIAN. ) SOLID_ANGLE_UNIT ( ) );
#355 = ADVANCED_FACE ( 'NONE', ( #64, #68 ), #192, .F. ) ;
#356 = EDGE_CURVE ( 'NONE', #181, #181, #214, .T. ) ;
#357 = VERTEX_POINT ( 'NONE', #275 ) ;
#358 = FACE_OUTER_BOUND ( 'NONE', #208, .T. ) ;
#359 = DIRECTION ( 'NONE',  ( 0.0000000000000000000, 1.000000000000000000, 0.0000000000000000000 ) ) ;
#360 = EDGE_LOOP ( 'NONE', ( #42 ) ) ;
#361 = AXIS2_PLACEMENT_3D ( 'NONE', #135, #365, #159 ) ;
#362 = CARTESIAN_POINT ( 'NONE',  ( 0.0000000000000000000, -10.00000000000000000, 0.0000000000000000000 ) ) ;
#363 = VERTEX_POINT ( 'NONE', #173 ) ;
#364 = DIRECTION ( 'NONE',  ( 0.0000000000000000000, 1.000000000000000000, 0.0000000000000000000 ) ) ;
#365 = DIRECTION ( 'NONE',  ( 0.0000000000000000000, 1.000000000000000000, 0.0000000000000000000 ) ) ;
#366 = FACE_OUTER_BOUND ( 'NONE', #34, .T. ) ;
#367 = ORIENTED_EDGE ( 'NONE', *, *, #96, .T. ) ;
#368 = CARTESIAN_POINT ( 'NONE',  ( 0.0000000000000000000, -12.00000000000000200, 0.0000000000000000000 ) ) ;
#369 = DIRECTION ( 'NONE',  ( 0.0000000000000000000, 1.000000000000000000, 0.0000000000000000000 ) ) ;
#370 = CARTESIAN_POINT ( 'NONE',  ( 0.0000000000000000000, -4.500000000000000900, 130.5999999999999900 ) ) ;
#371 = FACE_OUTER_BOUND ( 'NONE', #2, .T. ) ;
#372 = FACE_OUTER_BOUND ( 'NONE', #290, .T. ) ;
#373 = ORIENTED_EDGE ( 'NONE', *, *, #269, .T. ) ;
#374 = CIRCLE ( 'NONE', #188, 145.0000000000000000 ) ;
ENDSEC;
END-ISO-10303-21;
